Barclay James Harvest Tabs

Barclay James Harvest Guitar Tabs

Brother Thrush

"Brother Thrush" by Barclay James Harvest
Tabbed by Christopher Carl Heckman,
Using Seventh String's Transcribe! utility.

Usual disclaimers: You are allowed to use this file only for private study; making money off of it is strictly verboten. If the chords don't line up in whatever word processor you are using, change the whole document to Courier font (or some other equal-spaced font). And lastly: this is my interpretation of the song; no copyright infringement or toe-stepping-on is intended.

The bass seems to be a fretless; some of the bass notes are interpolated.



 Intro:  E5  | E5+C#  |  E5  |  A  E (hold 3 quarter notes)  |
                (bass: E pedal)


        E5+C#   E5                  E5+C# E5
Brother Thrush, how you fly so high,       way up in the clouds,
(E5)                   D            C#5     Bm7 D/A
The trees resound with open arms,   for one so  rare,
E       /G# /B   /E    A  E/B A
Brother Man just can't    com-   pare.


(A)        D              F#m7            G
When we're sitting on the banks of the sunshine,
(G) /A   /A   G      D              F#m7            G
We  hear your song, (sitting on the banks of the sunshine)
/G /A   /A   G     D  /E /F F#5   B7
We hear your song,          high above the living.


 Repeat INTRO, /B (on the A string) right before next verse:


E5+C#         E5                    E5+C# E5
Brother Gull, see him soar the sky,       he's so pleased to be,
(E5)           D          C#5    Bm7 D/A
Buoyant and triumphant on the raging sea,
E       /G# /B  /E A   E/B A
Backing nat-ure,   feeling free,  and


 CHORUS, then E5+9


 BRIDGE: bassline -- distance does not indicate time. Chords are
                best guesses.


  A                  F#sus4             E5
G---------------------------------------------------------
D-------0--6--0------------------2s4----------------------
A-0--2---------0s2-------2---4--------2-4---------0-2-----
E-----------------2--2----------------------0-------------
     Lov-ing  na-    ture,  rest your   head,  (nature)


   Abm              F#sus4                    E5
G------0-1-------------------------------0-----------------
D---------0---------------------3-4------------------------
A-(2)------0--2---1-----2h4----------2---------------------
E-------------------2-------------------------0---0--------
   Hear the   message,      man is     dead      (dead)


         Abm           F#sus4
G--------1-----------------------------------------------
D---------0----------------------------------------------
A--0-2-----0h2----2----2--2-----------2------------------
E---------------2---2--2--2--2-----2-------2----2--------
     See the  cities   fall, while Brother Bird still --




E5+C#         E5                    E5+C# E5
Brother Lark, see him wake the day,       see him fly on by,
(E5)                  D        C#5      Bm7 D/A
Above the streets now empty to his mournful cry,
E       /G# /B /E   A      E/B A
Brother Man    just heaves a   sigh, but


 CHORUS, ad lib, FADE OUT


Top of page

Other Tabs

Home Page